ISO-10303-21;
HEADER;
/* Generated by software containing ST-Developer
 * from STEP Tools, Inc. (www.steptools.com) 
 */

FILE_DESCRIPTION(
/* description */ (''),
/* implementation_level */ '2;1');

FILE_NAME(
/* name */ 'Cloudline_Feet.step',
/* time_stamp */ '2023-07-12T16:23:04+01:00',
/* author */ (''),
/* organization */ (''),
/* preprocessor_version */ 'ST-DEVELOPER v19.2',
/* originating_system */ 'Autodesk Translation Framework v11.17.0.187',

/* authorisation */ '');

FILE_SCHEMA (('AUTOMOTIVE_DESIGN { 1 0 10303 214 3 1 1 }'));
ENDSEC;

DATA;
#10=MECHANICAL_DESIGN_GEOMETRIC_PRESENTATION_REPRESENTATION('',(#13),#289);
#11=SHAPE_REPRESENTATION_RELATIONSHIP('SRR','None',#296,#12);
#12=ADVANCED_BREP_SHAPE_REPRESENTATION('',(#14),#288);
#13=STYLED_ITEM('',(#306),#14);
#14=MANIFOLD_SOLID_BREP('Body1',#157);
#15=PLANE('',#185);
#16=PLANE('',#186);
#17=PLANE('',#189);
#18=PLANE('',#190);
#19=TOROIDAL_SURFACE('',#174,2.49999999999999,0.5);
#20=TOROIDAL_SURFACE('',#180,2.5,0.5);
#21=FACE_OUTER_BOUND('',#31,.T.);
#22=FACE_OUTER_BOUND('',#32,.T.);
#23=FACE_OUTER_BOUND('',#33,.T.);
#24=FACE_OUTER_BOUND('',#34,.T.);
#25=FACE_OUTER_BOUND('',#35,.T.);
#26=FACE_OUTER_BOUND('',#36,.T.);
#27=FACE_OUTER_BOUND('',#37,.T.);
#28=FACE_OUTER_BOUND('',#38,.T.);
#29=FACE_OUTER_BOUND('',#39,.T.);
#30=FACE_OUTER_BOUND('',#40,.T.);
#31=EDGE_LOOP('',(#103,#104,#105,#106));
#32=EDGE_LOOP('',(#107,#108,#109,#110));
#33=EDGE_LOOP('',(#111,#112,#113,#114));
#34=EDGE_LOOP('',(#115,#116,#117,#118));
#35=EDGE_LOOP('',(#119,#120,#121,#122));
#36=EDGE_LOOP('',(#123,#124,#125,#126));
#37=EDGE_LOOP('',(#127,#128,#129,#130));
#38=EDGE_LOOP('',(#131,#132,#133,#134));
#39=EDGE_LOOP('',(#135,#136,#137,#138));
#40=EDGE_LOOP('',(#139,#140,#141,#142));
#41=LINE('',#249,#51);
#42=LINE('',#252,#52);
#43=LINE('',#263,#53);
#44=LINE('',#264,#54);
#45=LINE('',#270,#55);
#46=LINE('',#273,#56);
#47=LINE('',#276,#57);
#48=LINE('',#277,#58);
#49=LINE('',#281,#59);
#50=LINE('',#284,#60);
#51=VECTOR('',#197,10.);
#52=VECTOR('',#200,10.);
#53=VECTOR('',#213,10.);
#54=VECTOR('',#214,10.);
#55=VECTOR('',#223,10.);
#56=VECTOR('',#226,10.);
#57=VECTOR('',#229,10.);
#58=VECTOR('',#230,10.);
#59=VECTOR('',#235,10.);
#60=VECTOR('',#240,10.);
#61=CIRCLE('',#172,0.5);
#62=CIRCLE('',#173,0.5);
#63=CIRCLE('',#175,0.499999999999999);
#64=CIRCLE('',#176,2.49999999999999);
#65=CIRCLE('',#177,2.99999999999999);
#66=CIRCLE('',#179,0.5);
#67=CIRCLE('',#181,2.5);
#68=CIRCLE('',#182,3.);
#69=CIRCLE('',#184,2.99999999999999);
#70=CIRCLE('',#188,3.);
#71=VERTEX_POINT('',#245);
#72=VERTEX_POINT('',#246);
#73=VERTEX_POINT('',#248);
#74=VERTEX_POINT('',#250);
#75=VERTEX_POINT('',#254);
#76=VERTEX_POINT('',#255);
#77=VERTEX_POINT('',#260);
#78=VERTEX_POINT('',#261);
#79=VERTEX_POINT('',#269);
#80=VERTEX_POINT('',#271);
#81=VERTEX_POINT('',#275);
#82=VERTEX_POINT('',#280);
#83=EDGE_CURVE('',#71,#72,#61,.T.);
#84=EDGE_CURVE('',#72,#73,#41,.T.);
#85=EDGE_CURVE('',#73,#74,#62,.T.);
#86=EDGE_CURVE('',#74,#71,#42,.T.);
#87=EDGE_CURVE('',#75,#76,#63,.T.);
#88=EDGE_CURVE('',#76,#74,#64,.T.);
#89=EDGE_CURVE('',#73,#75,#65,.T.);
#90=EDGE_CURVE('',#77,#78,#66,.T.);
#91=EDGE_CURVE('',#78,#76,#43,.T.);
#92=EDGE_CURVE('',#75,#77,#44,.T.);
#93=EDGE_CURVE('',#71,#78,#67,.T.);
#94=EDGE_CURVE('',#77,#72,#68,.T.);
#95=EDGE_CURVE('',#79,#73,#45,.T.);
#96=EDGE_CURVE('',#79,#80,#69,.T.);
#97=EDGE_CURVE('',#80,#75,#46,.T.);
#98=EDGE_CURVE('',#81,#72,#47,.T.);
#99=EDGE_CURVE('',#81,#79,#48,.T.);
#100=EDGE_CURVE('',#82,#77,#49,.T.);
#101=EDGE_CURVE('',#82,#81,#70,.T.);
#102=EDGE_CURVE('',#80,#82,#50,.T.);
#103=ORIENTED_EDGE('',*,*,#83,.T.);
#104=ORIENTED_EDGE('',*,*,#84,.T.);
#105=ORIENTED_EDGE('',*,*,#85,.T.);
#106=ORIENTED_EDGE('',*,*,#86,.T.);
#107=ORIENTED_EDGE('',*,*,#87,.T.);
#108=ORIENTED_EDGE('',*,*,#88,.T.);
#109=ORIENTED_EDGE('',*,*,#85,.F.);
#110=ORIENTED_EDGE('',*,*,#89,.T.);
#111=ORIENTED_EDGE('',*,*,#90,.T.);
#112=ORIENTED_EDGE('',*,*,#91,.T.);
#113=ORIENTED_EDGE('',*,*,#87,.F.);
#114=ORIENTED_EDGE('',*,*,#92,.T.);
#115=ORIENTED_EDGE('',*,*,#83,.F.);
#116=ORIENTED_EDGE('',*,*,#93,.T.);
#117=ORIENTED_EDGE('',*,*,#90,.F.);
#118=ORIENTED_EDGE('',*,*,#94,.T.);
#119=ORIENTED_EDGE('',*,*,#89,.F.);
#120=ORIENTED_EDGE('',*,*,#95,.F.);
#121=ORIENTED_EDGE('',*,*,#96,.T.);
#122=ORIENTED_EDGE('',*,*,#97,.T.);
#123=ORIENTED_EDGE('',*,*,#84,.F.);
#124=ORIENTED_EDGE('',*,*,#98,.F.);
#125=ORIENTED_EDGE('',*,*,#99,.T.);
#126=ORIENTED_EDGE('',*,*,#95,.T.);
#127=ORIENTED_EDGE('',*,*,#86,.F.);
#128=ORIENTED_EDGE('',*,*,#88,.F.);
#129=ORIENTED_EDGE('',*,*,#91,.F.);
#130=ORIENTED_EDGE('',*,*,#93,.F.);
#131=ORIENTED_EDGE('',*,*,#94,.F.);
#132=ORIENTED_EDGE('',*,*,#100,.F.);
#133=ORIENTED_EDGE('',*,*,#101,.T.);
#134=ORIENTED_EDGE('',*,*,#98,.T.);
#135=ORIENTED_EDGE('',*,*,#92,.F.);
#136=ORIENTED_EDGE('',*,*,#97,.F.);
#137=ORIENTED_EDGE('',*,*,#102,.T.);
#138=ORIENTED_EDGE('',*,*,#100,.T.);
#139=ORIENTED_EDGE('',*,*,#96,.F.);
#140=ORIENTED_EDGE('',*,*,#99,.F.);
#141=ORIENTED_EDGE('',*,*,#101,.F.);
#142=ORIENTED_EDGE('',*,*,#102,.F.);
#143=CYLINDRICAL_SURFACE('',#171,0.5);
#144=CYLINDRICAL_SURFACE('',#178,0.5);
#145=CYLINDRICAL_SURFACE('',#183,2.99999999999999);
#146=CYLINDRICAL_SURFACE('',#187,3.);
#147=ADVANCED_FACE('',(#21),#143,.T.);
#148=ADVANCED_FACE('',(#22),#19,.T.);
#149=ADVANCED_FACE('',(#23),#144,.T.);
#150=ADVANCED_FACE('',(#24),#20,.T.);
#151=ADVANCED_FACE('',(#25),#145,.T.);
#152=ADVANCED_FACE('',(#26),#15,.T.);
#153=ADVANCED_FACE('',(#27),#16,.T.);
#154=ADVANCED_FACE('',(#28),#146,.T.);
#155=ADVANCED_FACE('',(#29),#17,.T.);
#156=ADVANCED_FACE('',(#30),#18,.F.);
#157=CLOSED_SHELL('',(#147,#148,#149,#150,#151,#152,#153,#154,#155,#156));
#158=DERIVED_UNIT_ELEMENT(#160,1.);
#159=DERIVED_UNIT_ELEMENT(#291,-3.);
#160=(
MASS_UNIT()
NAMED_UNIT(*)
SI_UNIT(.KILO.,.GRAM.)
);
#161=DERIVED_UNIT((#158,#159));
#162=MEASURE_REPRESENTATION_ITEM('density measure',
POSITIVE_RATIO_MEASURE(7850.),#161);
#163=PROPERTY_DEFINITION_REPRESENTATION(#168,#165);
#164=PROPERTY_DEFINITION_REPRESENTATION(#169,#166);
#165=REPRESENTATION('material name',(#167),#288);
#166=REPRESENTATION('density',(#162),#288);
#167=DESCRIPTIVE_REPRESENTATION_ITEM('Steel','Steel');
#168=PROPERTY_DEFINITION('material property','material name',#298);
#169=PROPERTY_DEFINITION('material property','density of part',#298);
#170=AXIS2_PLACEMENT_3D('placement',#243,#191,#192);
#171=AXIS2_PLACEMENT_3D('',#244,#193,#194);
#172=AXIS2_PLACEMENT_3D('',#247,#195,#196);
#173=AXIS2_PLACEMENT_3D('',#251,#198,#199);
#174=AXIS2_PLACEMENT_3D('',#253,#201,#202);
#175=AXIS2_PLACEMENT_3D('',#256,#203,#204);
#176=AXIS2_PLACEMENT_3D('',#257,#205,#206);
#177=AXIS2_PLACEMENT_3D('',#258,#207,#208);
#178=AXIS2_PLACEMENT_3D('',#259,#209,#210);
#179=AXIS2_PLACEMENT_3D('',#262,#211,#212);
#180=AXIS2_PLACEMENT_3D('',#265,#215,#216);
#181=AXIS2_PLACEMENT_3D('',#266,#217,#218);
#182=AXIS2_PLACEMENT_3D('',#267,#219,#220);
#183=AXIS2_PLACEMENT_3D('',#268,#221,#222);
#184=AXIS2_PLACEMENT_3D('',#272,#224,#225);
#185=AXIS2_PLACEMENT_3D('',#274,#227,#228);
#186=AXIS2_PLACEMENT_3D('',#278,#231,#232);
#187=AXIS2_PLACEMENT_3D('',#279,#233,#234);
#188=AXIS2_PLACEMENT_3D('',#282,#236,#237);
#189=AXIS2_PLACEMENT_3D('',#283,#238,#239);
#190=AXIS2_PLACEMENT_3D('',#285,#241,#242);
#191=DIRECTION('axis',(0.,0.,1.));
#192=DIRECTION('refdir',(1.,0.,0.));
#193=DIRECTION('center_axis',(1.,0.,0.));
#194=DIRECTION('ref_axis',(0.,-0.707106781186548,0.707106781186548));
#195=DIRECTION('center_axis',(1.,-1.11022302462516E-15,0.));
#196=DIRECTION('ref_axis',(0.,0.,1.));
#197=DIRECTION('',(1.,0.,0.));
#198=DIRECTION('center_axis',(-1.,0.,0.));
#199=DIRECTION('ref_axis',(0.,-1.,0.));
#200=DIRECTION('',(-1.,0.,0.));
#201=DIRECTION('center_axis',(0.,0.,1.));
#202=DIRECTION('ref_axis',(1.,0.,0.));
#203=DIRECTION('center_axis',(1.,8.88178419700126E-15,0.));
#204=DIRECTION('ref_axis',(-8.88178419700126E-15,1.,0.));
#205=DIRECTION('center_axis',(0.,0.,-1.));
#206=DIRECTION('ref_axis',(1.,-2.96059473233376E-15,0.));
#207=DIRECTION('center_axis',(0.,0.,1.));
#208=DIRECTION('ref_axis',(1.,-2.96059473233376E-15,0.));
#209=DIRECTION('center_axis',(-1.,-3.70074341541719E-17,0.));
#210=DIRECTION('ref_axis',(0.,0.707106781186548,0.707106781186547));
#211=DIRECTION('center_axis',(1.,0.,0.));
#212=DIRECTION('ref_axis',(0.,1.,0.));
#213=DIRECTION('',(1.,3.70074341541719E-17,0.));
#214=DIRECTION('',(-1.,-3.70074341541719E-17,0.));
#215=DIRECTION('center_axis',(0.,0.,1.));
#216=DIRECTION('ref_axis',(-1.,-1.48029736616688E-16,0.));
#217=DIRECTION('center_axis',(0.,0.,-1.));
#218=DIRECTION('ref_axis',(-1.,-3.70074341541719E-16,0.));
#219=DIRECTION('center_axis',(0.,0.,1.));
#220=DIRECTION('ref_axis',(-1.,-3.70074341541719E-16,0.));
#221=DIRECTION('center_axis',(0.,0.,1.));
#222=DIRECTION('ref_axis',(1.,-2.40548322002118E-15,0.));
#223=DIRECTION('',(0.,0.,1.));
#224=DIRECTION('center_axis',(0.,0.,1.));
#225=DIRECTION('ref_axis',(1.,-2.40548322002118E-15,0.));
#226=DIRECTION('',(0.,0.,1.));
#227=DIRECTION('center_axis',(0.,-1.,0.));
#228=DIRECTION('ref_axis',(1.,0.,0.));
#229=DIRECTION('',(0.,0.,1.));
#230=DIRECTION('',(1.,0.,0.));
#231=DIRECTION('center_axis',(0.,0.,1.));
#232=DIRECTION('ref_axis',(1.,0.,0.));
#233=DIRECTION('center_axis',(0.,0.,1.));
#234=DIRECTION('ref_axis',(1.8503717077086E-15,1.,0.));
#235=DIRECTION('',(0.,0.,1.));
#236=DIRECTION('center_axis',(0.,0.,1.));
#237=DIRECTION('ref_axis',(1.8503717077086E-15,1.,0.));
#238=DIRECTION('center_axis',(-3.70074341541719E-17,1.,0.));
#239=DIRECTION('ref_axis',(-1.,-3.70074341541719E-17,0.));
#240=DIRECTION('',(-1.,-3.70074341541719E-17,0.));
#241=DIRECTION('center_axis',(0.,0.,1.));
#242=DIRECTION('ref_axis',(1.,0.,0.));
#243=CARTESIAN_POINT('',(0.,0.,0.));
#244=CARTESIAN_POINT('Origin',(10.5,0.5,1.5));
#245=CARTESIAN_POINT('',(3.,0.5,2.));
#246=CARTESIAN_POINT('',(3.,0.,1.5));
#247=CARTESIAN_POINT('Origin',(3.,0.5,1.5));
#248=CARTESIAN_POINT('',(33.,0.,1.5));
#249=CARTESIAN_POINT('',(10.5,0.,1.5));
#250=CARTESIAN_POINT('',(33.,0.5,2.));
#251=CARTESIAN_POINT('Origin',(33.,0.5,1.5));
#252=CARTESIAN_POINT('',(10.5,0.5,2.));
#253=CARTESIAN_POINT('Origin',(33.,3.00000000000001,1.5));
#254=CARTESIAN_POINT('',(33.,6.,1.5));
#255=CARTESIAN_POINT('',(33.,5.5,2.));
#256=CARTESIAN_POINT('Origin',(33.,5.5,1.5));
#257=CARTESIAN_POINT('Origin',(33.,3.00000000000001,2.));
#258=CARTESIAN_POINT('Origin',(33.,3.00000000000001,1.5));
#259=CARTESIAN_POINT('Origin',(25.5,5.5,1.5));
#260=CARTESIAN_POINT('',(3.,6.,1.5));
#261=CARTESIAN_POINT('',(3.,5.5,2.));
#262=CARTESIAN_POINT('Origin',(3.,5.5,1.5));
#263=CARTESIAN_POINT('',(25.5,5.5,2.));
#264=CARTESIAN_POINT('',(25.5,6.,1.5));
#265=CARTESIAN_POINT('Origin',(3.,3.,1.5));
#266=CARTESIAN_POINT('Origin',(3.,3.,2.));
#267=CARTESIAN_POINT('Origin',(3.,3.,1.5));
#268=CARTESIAN_POINT('Origin',(33.,3.00000000000001,0.));
#269=CARTESIAN_POINT('',(33.,0.,0.));
#270=CARTESIAN_POINT('',(33.,0.,0.));
#271=CARTESIAN_POINT('',(33.,6.,0.));
#272=CARTESIAN_POINT('Origin',(33.,3.00000000000001,0.));
#273=CARTESIAN_POINT('',(33.,6.,0.));
#274=CARTESIAN_POINT('Origin',(3.,0.,0.));
#275=CARTESIAN_POINT('',(3.,0.,0.));
#276=CARTESIAN_POINT('',(3.,0.,0.));
#277=CARTESIAN_POINT('',(3.,0.,0.));
#278=CARTESIAN_POINT('Origin',(18.,3.,2.));
#279=CARTESIAN_POINT('Origin',(3.,3.,0.));
#280=CARTESIAN_POINT('',(3.,6.,0.));
#281=CARTESIAN_POINT('',(3.,6.,0.));
#282=CARTESIAN_POINT('Origin',(3.,3.,0.));
#283=CARTESIAN_POINT('Origin',(33.,6.,0.));
#284=CARTESIAN_POINT('',(33.,6.,0.));
#285=CARTESIAN_POINT('Origin',(18.,3.,0.));
#286=UNCERTAINTY_MEASURE_WITH_UNIT(LENGTH_MEASURE(0.01),#290,
'DISTANCE_ACCURACY_VALUE',
'Maximum model space distance between geometric entities at asserted c
onnectivities');
#287=UNCERTAINTY_MEASURE_WITH_UNIT(LENGTH_MEASURE(0.01),#290,
'DISTANCE_ACCURACY_VALUE',
'Maximum model space distance between geometric entities at asserted c
onnectivities');
#288=(
GEOMETRIC_REPRESENTATION_CONTEXT(3)
GLOBAL_UNCERTAINTY_ASSIGNED_CONTEXT((#286))
GLOBAL_UNIT_ASSIGNED_CONTEXT((#290,#292,#293))
REPRESENTATION_CONTEXT('','3D')
);
#289=(
GEOMETRIC_REPRESENTATION_CONTEXT(3)
GLOBAL_UNCERTAINTY_ASSIGNED_CONTEXT((#287))
GLOBAL_UNIT_ASSIGNED_CONTEXT((#290,#292,#293))
REPRESENTATION_CONTEXT('','3D')
);
#290=(
LENGTH_UNIT()
NAMED_UNIT(*)
SI_UNIT(.MILLI.,.METRE.)
);
#291=(
LENGTH_UNIT()
NAMED_UNIT(*)
SI_UNIT($,.METRE.)
);
#292=(
NAMED_UNIT(*)
PLANE_ANGLE_UNIT()
SI_UNIT($,.RADIAN.)
);
#293=(
NAMED_UNIT(*)
SI_UNIT($,.STERADIAN.)
SOLID_ANGLE_UNIT()
);
#294=SHAPE_DEFINITION_REPRESENTATION(#295,#296);
#295=PRODUCT_DEFINITION_SHAPE('',$,#298);
#296=SHAPE_REPRESENTATION('',(#170),#288);
#297=PRODUCT_DEFINITION_CONTEXT('part definition',#302,'design');
#298=PRODUCT_DEFINITION('Cloudline feet','Cloudline feet v1',#299,#297);
#299=PRODUCT_DEFINITION_FORMATION('',$,#304);
#300=PRODUCT_RELATED_PRODUCT_CATEGORY('Cloudline feet v1',
'Cloudline feet v1',(#304));
#301=APPLICATION_PROTOCOL_DEFINITION('international standard',
'automotive_design',2009,#302);
#302=APPLICATION_CONTEXT(
'Core Data for Automotive Mechanical Design Process');
#303=PRODUCT_CONTEXT('part definition',#302,'mechanical');
#304=PRODUCT('Cloudline feet','Cloudline feet v1',$,(#303));
#305=PRESENTATION_STYLE_ASSIGNMENT((#307));
#306=PRESENTATION_STYLE_ASSIGNMENT((#308));
#307=SURFACE_STYLE_USAGE(.BOTH.,#309);
#308=SURFACE_STYLE_USAGE(.BOTH.,#310);
#309=SURFACE_SIDE_STYLE('',(#311));
#310=SURFACE_SIDE_STYLE('',(#312));
#311=SURFACE_STYLE_FILL_AREA(#313);
#312=SURFACE_STYLE_FILL_AREA(#314);
#313=FILL_AREA_STYLE('Steel - Satin',(#315));
#314=FILL_AREA_STYLE('Rubber - Hard',(#316));
#315=FILL_AREA_STYLE_COLOUR('Steel - Satin',#317);
#316=FILL_AREA_STYLE_COLOUR('Rubber - Hard',#318);
#317=COLOUR_RGB('Steel - Satin',0.627450980392157,0.627450980392157,0.627450980392157);
#318=COLOUR_RGB('Rubber - Hard',0.152941176470588,0.152941176470588,0.152941176470588);
ENDSEC;
END-ISO-10303-21;
